Autor Tema: Uno de cafrune!!  (Leído 407 veces)

0 Usuarios y 1 Visitante están viendo este tema.

Desconectado simplemelodia

  • Ciudadano XS.
  • Mensajes: 9
Uno de cafrune!!
« en: Octubre 15, 2015, 02:11:04 am »
Hola, queria regalarle a mi vieja en el dia de la madre algun tema de los que canta cafrune!
Buscaba la intro al menos de este clasico pero no lo encontre en la red!
Que seas vos
[youtube]http://www.youtube.com/watch?v=41g-XV3Id7g[/youtube]

« última modificación: Octubre 15, 2015, 12:29:06 pm por Albertino Neri »

Desconectado Unicordio

  • Webmaster
  • Ciudadano XL.
  • *****
  • Mensajes: 6505
Re:Uno de cafrune!!
« Respuesta #1 en: Octubre 15, 2015, 05:29:03 pm »
Tu google anda para el orto; simplemelodia

Intro:


|----7--5--3-----7--5--3-----8--7--5------5--3--2-----5--3--2-----7--5--3---
|--0-8--7--5--0--8--7--5--0--10-8--7---0--7--5--4--0--7--2--4--0--8--7--5---
|---------------------------------------------------------------------------
|---------------------------------------------------------------------------
|---------------------------------------------------------------------------
|---------------------------------------------------------------------------



|----7--5--3-----7--5--3-----8--7--5-----------------------------------------
|--0-8--7--5--0--8--7--5--0--10-8--7-----------------------------------------
|----------------------------------------------------------------------------
|---------------------------------------------------------------------0-1-2--
|-------------------------------------2-3-2-0-1-2-3-----------0-1-2-3--------
|---------------------------------------------------0-1-2-3-4----------------




ESTA EN EL TOO ORIGINAL USA COPOTRASTE
EN EL SEGUNDO ESPERO LES GUSTE Y LE SIRVA

Introducción:
REm LAm MI7 LAm REm LAm MI7 LAm MI7 LAm

LAm   (MI7)    LAm
Cuando ya no alumbre
          SOL7              DO
el candil arisco de mi corazón,
             REm            LAm
volvete ami tierra llévate mis coplas
MI7         LAm
-y cantalas vos.

Que mis cerros sepan
como lo he sentido casi sin dolor,
sembrando mis versos allá en la quebrada
decíselo vos.

Estribillo:
             SOL7             DO
Que toda la puna vibre con el eco
 MI7           LAm
-De cada canción;
                 REm                   LAm
que alguien las entone de pie y cara al cielo,
 MI7            LAm
-pero que seas vos.

Repite introducción.

Quiero darle al viento
un poncho de notas con flecos de sol,
que envuelto en mis zambas las silbe y las baile,
pedicelo vos.

Si te pones triste
pensá que en la noche embrujada estoy yo,
que si se ha perdido mi canto en la sombra,
-perdurará en vos.
Repite estribillo


CLAVEDESOL1
« última modificación: Octubre 15, 2015, 05:31:42 pm por Unicordio »
Para todos los que creían que estaban mal...

Desconectado simplemelodia

  • Ciudadano XS.
  • Mensajes: 9
Re:Uno de cafrune!!
« Respuesta #2 en: Octubre 16, 2015, 01:28:28 am »
Tu google anda para el orto; simplemelodia

Intro:


|----7--5--3-----7--5--3-----8--7--5------5--3--2-----5--3--2-----7--5--3---
|--0-8--7--5--0--8--7--5--0--10-8--7---0--7--5--4--0--7--2--4--0--8--7--5---
|---------------------------------------------------------------------------
|---------------------------------------------------------------------------
|---------------------------------------------------------------------------
|---------------------------------------------------------------------------



|----7--5--3-----7--5--3-----8--7--5-----------------------------------------
|--0-8--7--5--0--8--7--5--0--10-8--7-----------------------------------------
|----------------------------------------------------------------------------
|---------------------------------------------------------------------0-1-2--
|-------------------------------------2-3-2-0-1-2-3-----------0-1-2-3--------
|---------------------------------------------------0-1-2-3-4----------------



pero esa es la intro de otro tema jaja  :P  Unicordio

Desconectado Unicordio

  • Webmaster
  • Ciudadano XL.
  • *****
  • Mensajes: 6505
Re:Uno de cafrune!!
« Respuesta #3 en: Octubre 16, 2015, 10:19:06 am »
A ver si es este.

QUE SEAS VOS
Jorge Cafrune (1964)

INTRO

Am  - E7  -   Am  -   G7  -   C  -   Dm  -   Am  -   E7  -   Am    2x


VERSE 1

Am     E7        Am
Cuando    ya no alumbre
           G7              C
El candil arisco de mi corazón
             Dm                 Am
Volvete a mi tierra llevate mis coplas
  E7       Am
Y cantalas vos

Am     E7        Am
Cuando    ya no alumbre
            G7             C
El candil arisco de mi corazón
               Dm                Am
Volvete a mi tierra llevate mis coplas
E7         Am
Y cantalas vos

VERSE 2

Am  E7           Am
Que   mis cerros sepan
               G7             C
Como lo he sentido casi sin dolor
               Dm                  Am
Temblando mis versos allá en la quebrada
E7       Am
Decíselo vos.

Am  -   E7  -   Am  -   G7  -   C  -   Dm  -   Am  -   E7  -   Am    2x

BRIDGE
            G7                C
Que toda la puna vibre con el eco
E7         Am
De cada canción
                  Dm                    Am
Que alguien las entone de pie y cara al cielo
E7            Am
Pero que seas vos
                  Dm                    Am
Que alguien las entone de pie y cara al cielo
E7            Am
Pero que seas vos.


VERSE 3

Am       E7         Am
Quiero     darle al viento
             G7                  C
Un poncho de notas con flecos de sol
                   Dm                   Am
Que envuelto en mi zamba la silbe y las baile
   E7    Am
Pediselo vos?

Am   E7          Am
Si      te pones triste
                G7                    C
Pensa que en la noche embrujada estoy yo
                Dm                  Am
Que si se ha perdido mi canto en la sombra
E7           Am
Perdurara en vos.

Para todos los que creían que estaban mal...

Desconectado Avex

  • Usuario Fundador
  • Ciudadano XL.
  • *****
  • Mensajes: 3269
Re:Uno de cafrune!!
« Respuesta #4 en: Octubre 16, 2015, 11:21:33 am »
Acá te paso una versión un poquito simplificada de la intro.
El original tiene capo en el 1er traste por lo que escucho, lo toque un poco mas lento para que puedas ver las posiciones de los acordes.

[youtube]http://www.youtube.com/watch?v=CNm6g37pJ4k[/youtube]


El resto del tema es muy simple, las posiciones de los acordes con el Capo en el traste I te quedan:

Dm A7 Dm C7 F
Gm Dm A7 Dm (bis)     para las estrofas

C7 F A7 Dm
Gm Dm A7 Dm (bis)   para estribillo

Saludos!
« última modificación: Octubre 16, 2015, 11:25:59 am por Avex »

Desconectado simplemelodia

  • Ciudadano XS.
  • Mensajes: 9
Re:Uno de cafrune!!
« Respuesta #5 en: Octubre 16, 2015, 03:53:23 pm »
gracias Avex por esa intro!!!!!  ;D ;D ;D ;D ahi me pongo a tratar de hacerlo!! grazzie!!

Desconectado Avex

  • Usuario Fundador
  • Ciudadano XL.
  • *****
  • Mensajes: 3269
Re:Uno de cafrune!!
« Respuesta #6 en: Octubre 17, 2015, 05:24:28 pm »
gracias Avex por esa intro!!!!!  ;D ;D ;D ;D ahi me pongo a tratar de hacerlo!! grazzie!!

De nada, ojalá te sirva para sacarlo.

Saludos

 

-no title-

27 Visitantes, 0 Usuarios